ISO-10303-21;
HEADER;
FILE_DESCRIPTION(('Open CASCADE Model'),'2;1');
FILE_NAME('Open CASCADE Shape Model','2025-09-01T14:32:53',('Author'),(
    'Open CASCADE'),'Open CASCADE STEP processor 7.5','Open CASCADE 7.5'
  ,'Unknown');
FILE_SCHEMA(('AUTOMOTIVE_DESIGN { 1 0 10303 214 1 1 1 1 }'));
ENDSEC;
DATA;
#1 = APPLICATION_PROTOCOL_DEFINITION('international standard',
  'automotive_design',2000,#2);
#2 = APPLICATION_CONTEXT(
  'core data for automotive mechanical design processes');
#3 = SHAPE_DEFINITION_REPRESENTATION(#4,#10);
#4 = PRODUCT_DEFINITION_SHAPE('','',#5);
#5 = PRODUCT_DEFINITION('design','',#6,#9);
#6 = PRODUCT_DEFINITION_FORMATION('','',#7);
#7 = PRODUCT('PCB','PCB','',(#8));
#8 = PRODUCT_CONTEXT('',#2,'mechanical');
#9 = PRODUCT_DEFINITION_CONTEXT('part definition',#2,'design');
#10 = SHAPE_REPRESENTATION('',(#11,#15),#19);
#11 = AXIS2_PLACEMENT_3D('',#12,#13,#14);
#12 = CARTESIAN_POINT('',(0.,0.,0.));
#13 = DIRECTION('',(0.,0.,1.));
#14 = DIRECTION('',(1.,0.,-0.));
#15 = AXIS2_PLACEMENT_3D('',#16,#17,#18);
#16 = CARTESIAN_POINT('',(0.,0.,0.));
#17 = DIRECTION('',(0.,0.,1.));
#18 = DIRECTION('',(1.,0.,-0.));
#19 = ( GEOMETRIC_REPRESENTATION_CONTEXT(3) 
GLOBAL_UNCERTAINTY_ASSIGNED_CONTEXT((#23)) GLOBAL_UNIT_ASSIGNED_CONTEXT(
(#20,#21,#22)) REPRESENTATION_CONTEXT('Context #1',
  '3D Context with UNIT and UNCERTAINTY') );
#20 = ( LENGTH_UNIT() NAMED_UNIT(*) SI_UNIT(.MILLI.,.METRE.) );
#21 = ( NAMED_UNIT(*) PLANE_ANGLE_UNIT() SI_UNIT($,.RADIAN.) );
#22 = ( NAMED_UNIT(*) SI_UNIT($,.STERADIAN.) SOLID_ANGLE_UNIT() );
#23 = UNCERTAINTY_MEASURE_WITH_UNIT(LENGTH_MEASURE(1.E-07),#20,
  'distance_accuracy_value','confusion accuracy');
#24 = PRODUCT_RELATED_PRODUCT_CATEGORY('part',$,(#7));
#25 = SHAPE_DEFINITION_REPRESENTATION(#26,#32);
#26 = PRODUCT_DEFINITION_SHAPE('','',#27);
#27 = PRODUCT_DEFINITION('design','',#28,#31);
#28 = PRODUCT_DEFINITION_FORMATION('','',#29);
#29 = PRODUCT('Board','Board','',(#30));
#30 = PRODUCT_CONTEXT('',#2,'mechanical');
#31 = PRODUCT_DEFINITION_CONTEXT('part definition',#2,'design');
#32 = SHAPE_REPRESENTATION('',(#11,#33),#37);
#33 = AXIS2_PLACEMENT_3D('',#34,#35,#36);
#34 = CARTESIAN_POINT('',(0.,0.,-0.1114806));
#35 = DIRECTION('',(0.,0.,1.));
#36 = DIRECTION('',(1.,0.,-0.));
#37 = ( GEOMETRIC_REPRESENTATION_CONTEXT(3) 
GLOBAL_UNCERTAINTY_ASSIGNED_CONTEXT((#41)) GLOBAL_UNIT_ASSIGNED_CONTEXT(
(#38,#39,#40)) REPRESENTATION_CONTEXT('Context #1',
  '3D Context with UNIT and UNCERTAINTY') );
#38 = ( LENGTH_UNIT() NAMED_UNIT(*) SI_UNIT(.MILLI.,.METRE.) );
#39 = ( NAMED_UNIT(*) PLANE_ANGLE_UNIT() SI_UNIT($,.RADIAN.) );
#40 = ( NAMED_UNIT(*) SI_UNIT($,.STERADIAN.) SOLID_ANGLE_UNIT() );
#41 = UNCERTAINTY_MEASURE_WITH_UNIT(LENGTH_MEASURE(1.E-07),#38,
  'distance_accuracy_value','confusion accuracy');
#42 = ADVANCED_BREP_SHAPE_REPRESENTATION('',(#11,#43),#333);
#43 = MANIFOLD_SOLID_BREP('',#44);
#44 = CLOSED_SHELL('',(#45,#87,#118,#151,#182,#215,#246,#279,#301,#317)
  );
#45 = ADVANCED_FACE('',(#46),#82,.T.);
#46 = FACE_BOUND('',#47,.F.);
#47 = EDGE_LOOP('',(#48,#58,#67,#75));
#48 = ORIENTED_EDGE('',*,*,#49,.T.);
#49 = EDGE_CURVE('',#50,#52,#54,.T.);
#50 = VERTEX_POINT('',#51);
#51 = CARTESIAN_POINT('',(56.103,33.754,0.));
#52 = VERTEX_POINT('',#53);
#53 = CARTESIAN_POINT('',(56.103,33.754,0.1114806));
#54 = LINE('',#55,#56);
#55 = CARTESIAN_POINT('',(56.103,33.754,0.));
#56 = VECTOR('',#57,1.);
#57 = DIRECTION('',(0.,0.,1.));
#58 = ORIENTED_EDGE('',*,*,#59,.T.);
#59 = EDGE_CURVE('',#52,#60,#62,.T.);
#60 = VERTEX_POINT('',#61);
#61 = CARTESIAN_POINT('',(56.353,33.504,0.1114806));
#62 = CIRCLE('',#63,0.249241542161);
#63 = AXIS2_PLACEMENT_3D('',#64,#65,#66);
#64 = CARTESIAN_POINT('',(56.352240384615,33.753240384615,0.1114806));
#65 = DIRECTION('',(0.,0.,1.));
#66 = DIRECTION('',(-0.999995355728,3.047707769863E-03,0.));
#67 = ORIENTED_EDGE('',*,*,#68,.F.);
#68 = EDGE_CURVE('',#69,#60,#71,.T.);
#69 = VERTEX_POINT('',#70);
#70 = CARTESIAN_POINT('',(56.353,33.504,0.));
#71 = LINE('',#72,#73);
#72 = CARTESIAN_POINT('',(56.353,33.504,0.));
#73 = VECTOR('',#74,1.);
#74 = DIRECTION('',(0.,0.,1.));
#75 = ORIENTED_EDGE('',*,*,#76,.F.);
#76 = EDGE_CURVE('',#50,#69,#77,.T.);
#77 = CIRCLE('',#78,0.249241542161);
#78 = AXIS2_PLACEMENT_3D('',#79,#80,#81);
#79 = CARTESIAN_POINT('',(56.352240384615,33.753240384615,0.));
#80 = DIRECTION('',(0.,0.,1.));
#81 = DIRECTION('',(-0.999995355728,3.047707769863E-03,0.));
#82 = CYLINDRICAL_SURFACE('',#83,0.249241542161);
#83 = AXIS2_PLACEMENT_3D('',#84,#85,#86);
#84 = CARTESIAN_POINT('',(56.352240384615,33.753240384615,0.));
#85 = DIRECTION('',(-0.,-0.,-1.));
#86 = DIRECTION('',(-0.999995355728,3.047707769863E-03,0.));
#87 = ADVANCED_FACE('',(#88),#113,.F.);
#88 = FACE_BOUND('',#89,.F.);
#89 = EDGE_LOOP('',(#90,#91,#99,#107));
#90 = ORIENTED_EDGE('',*,*,#68,.T.);
#91 = ORIENTED_EDGE('',*,*,#92,.T.);
#92 = EDGE_CURVE('',#60,#93,#95,.T.);
#93 = VERTEX_POINT('',#94);
#94 = CARTESIAN_POINT('',(75.753,33.504,0.1114806));
#95 = LINE('',#96,#97);
#96 = CARTESIAN_POINT('',(56.353,33.504,0.1114806));
#97 = VECTOR('',#98,1.);
#98 = DIRECTION('',(1.,0.,0.));
#99 = ORIENTED_EDGE('',*,*,#100,.F.);
#100 = EDGE_CURVE('',#101,#93,#103,.T.);
#101 = VERTEX_POINT('',#102);
#102 = CARTESIAN_POINT('',(75.753,33.504,0.));
#103 = LINE('',#104,#105);
#104 = CARTESIAN_POINT('',(75.753,33.504,0.));
#105 = VECTOR('',#106,1.);
#106 = DIRECTION('',(0.,0.,1.));
#107 = ORIENTED_EDGE('',*,*,#108,.F.);
#108 = EDGE_CURVE('',#69,#101,#109,.T.);
#109 = LINE('',#110,#111);
#110 = CARTESIAN_POINT('',(56.353,33.504,0.));
#111 = VECTOR('',#112,1.);
#112 = DIRECTION('',(1.,0.,0.));
#113 = PLANE('',#114);
#114 = AXIS2_PLACEMENT_3D('',#115,#116,#117);
#115 = CARTESIAN_POINT('',(56.353,33.504,0.));
#116 = DIRECTION('',(0.,1.,0.));
#117 = DIRECTION('',(1.,0.,0.));
#118 = ADVANCED_FACE('',(#119),#146,.T.);
#119 = FACE_BOUND('',#120,.F.);
#120 = EDGE_LOOP('',(#121,#122,#131,#139));
#121 = ORIENTED_EDGE('',*,*,#100,.T.);
#122 = ORIENTED_EDGE('',*,*,#123,.T.);
#123 = EDGE_CURVE('',#93,#124,#126,.T.);
#124 = VERTEX_POINT('',#125);
#125 = CARTESIAN_POINT('',(76.003,33.754,0.1114806));
#126 = CIRCLE('',#127,0.249241542161);
#127 = AXIS2_PLACEMENT_3D('',#128,#129,#130);
#128 = CARTESIAN_POINT('',(75.753759615385,33.753240384615,0.1114806));
#129 = DIRECTION('',(0.,0.,1.));
#130 = DIRECTION('',(-3.047707769892E-03,-0.999995355728,0.));
#131 = ORIENTED_EDGE('',*,*,#132,.F.);
#132 = EDGE_CURVE('',#133,#124,#135,.T.);
#133 = VERTEX_POINT('',#134);
#134 = CARTESIAN_POINT('',(76.003,33.754,0.));
#135 = LINE('',#136,#137);
#136 = CARTESIAN_POINT('',(76.003,33.754,0.));
#137 = VECTOR('',#138,1.);
#138 = DIRECTION('',(0.,0.,1.));
#139 = ORIENTED_EDGE('',*,*,#140,.F.);
#140 = EDGE_CURVE('',#101,#133,#141,.T.);
#141 = CIRCLE('',#142,0.249241542161);
#142 = AXIS2_PLACEMENT_3D('',#143,#144,#145);
#143 = CARTESIAN_POINT('',(75.753759615385,33.753240384615,0.));
#144 = DIRECTION('',(0.,0.,1.));
#145 = DIRECTION('',(-3.047707769892E-03,-0.999995355728,0.));
#146 = CYLINDRICAL_SURFACE('',#147,0.249241542161);
#147 = AXIS2_PLACEMENT_3D('',#148,#149,#150);
#148 = CARTESIAN_POINT('',(75.753759615385,33.753240384615,0.));
#149 = DIRECTION('',(-0.,-0.,-1.));
#150 = DIRECTION('',(-3.047707769892E-03,-0.999995355728,0.));
#151 = ADVANCED_FACE('',(#152),#177,.F.);
#152 = FACE_BOUND('',#153,.F.);
#153 = EDGE_LOOP('',(#154,#155,#163,#171));
#154 = ORIENTED_EDGE('',*,*,#132,.T.);
#155 = ORIENTED_EDGE('',*,*,#156,.T.);
#156 = EDGE_CURVE('',#124,#157,#159,.T.);
#157 = VERTEX_POINT('',#158);
#158 = CARTESIAN_POINT('',(76.003,42.154,0.1114806));
#159 = LINE('',#160,#161);
#160 = CARTESIAN_POINT('',(76.003,33.754,0.1114806));
#161 = VECTOR('',#162,1.);
#162 = DIRECTION('',(0.,1.,0.));
#163 = ORIENTED_EDGE('',*,*,#164,.F.);
#164 = EDGE_CURVE('',#165,#157,#167,.T.);
#165 = VERTEX_POINT('',#166);
#166 = CARTESIAN_POINT('',(76.003,42.154,0.));
#167 = LINE('',#168,#169);
#168 = CARTESIAN_POINT('',(76.003,42.154,0.));
#169 = VECTOR('',#170,1.);
#170 = DIRECTION('',(0.,0.,1.));
#171 = ORIENTED_EDGE('',*,*,#172,.F.);
#172 = EDGE_CURVE('',#133,#165,#173,.T.);
#173 = LINE('',#174,#175);
#174 = CARTESIAN_POINT('',(76.003,33.754,0.));
#175 = VECTOR('',#176,1.);
#176 = DIRECTION('',(0.,1.,0.));
#177 = PLANE('',#178);
#178 = AXIS2_PLACEMENT_3D('',#179,#180,#181);
#179 = CARTESIAN_POINT('',(76.003,33.754,0.));
#180 = DIRECTION('',(-1.,0.,0.));
#181 = DIRECTION('',(0.,1.,0.));
#182 = ADVANCED_FACE('',(#183),#210,.T.);
#183 = FACE_BOUND('',#184,.F.);
#184 = EDGE_LOOP('',(#185,#186,#195,#203));
#185 = ORIENTED_EDGE('',*,*,#164,.T.);
#186 = ORIENTED_EDGE('',*,*,#187,.T.);
#187 = EDGE_CURVE('',#157,#188,#190,.T.);
#188 = VERTEX_POINT('',#189);
#189 = CARTESIAN_POINT('',(75.753,42.404,0.1114806));
#190 = CIRCLE('',#191,0.249241542161);
#191 = AXIS2_PLACEMENT_3D('',#192,#193,#194);
#192 = CARTESIAN_POINT('',(75.753759615385,42.154759615385,0.1114806));
#193 = DIRECTION('',(0.,0.,1.));
#194 = DIRECTION('',(0.999995355728,-3.04770776992E-03,0.));
#195 = ORIENTED_EDGE('',*,*,#196,.F.);
#196 = EDGE_CURVE('',#197,#188,#199,.T.);
#197 = VERTEX_POINT('',#198);
#198 = CARTESIAN_POINT('',(75.753,42.404,0.));
#199 = LINE('',#200,#201);
#200 = CARTESIAN_POINT('',(75.753,42.404,0.));
#201 = VECTOR('',#202,1.);
#202 = DIRECTION('',(0.,0.,1.));
#203 = ORIENTED_EDGE('',*,*,#204,.F.);
#204 = EDGE_CURVE('',#165,#197,#205,.T.);
#205 = CIRCLE('',#206,0.249241542161);
#206 = AXIS2_PLACEMENT_3D('',#207,#208,#209);
#207 = CARTESIAN_POINT('',(75.753759615385,42.154759615385,0.));
#208 = DIRECTION('',(0.,0.,1.));
#209 = DIRECTION('',(0.999995355728,-3.04770776992E-03,0.));
#210 = CYLINDRICAL_SURFACE('',#211,0.249241542161);
#211 = AXIS2_PLACEMENT_3D('',#212,#213,#214);
#212 = CARTESIAN_POINT('',(75.753759615385,42.154759615385,0.));
#213 = DIRECTION('',(-0.,-0.,-1.));
#214 = DIRECTION('',(0.999995355728,-3.04770776992E-03,0.));
#215 = ADVANCED_FACE('',(#216),#241,.F.);
#216 = FACE_BOUND('',#217,.F.);
#217 = EDGE_LOOP('',(#218,#219,#227,#235));
#218 = ORIENTED_EDGE('',*,*,#196,.T.);
#219 = ORIENTED_EDGE('',*,*,#220,.T.);
#220 = EDGE_CURVE('',#188,#221,#223,.T.);
#221 = VERTEX_POINT('',#222);
#222 = CARTESIAN_POINT('',(56.353,42.404,0.1114806));
#223 = LINE('',#224,#225);
#224 = CARTESIAN_POINT('',(75.753,42.404,0.1114806));
#225 = VECTOR('',#226,1.);
#226 = DIRECTION('',(-1.,0.,0.));
#227 = ORIENTED_EDGE('',*,*,#228,.F.);
#228 = EDGE_CURVE('',#229,#221,#231,.T.);
#229 = VERTEX_POINT('',#230);
#230 = CARTESIAN_POINT('',(56.353,42.404,0.));
#231 = LINE('',#232,#233);
#232 = CARTESIAN_POINT('',(56.353,42.404,0.));
#233 = VECTOR('',#234,1.);
#234 = DIRECTION('',(0.,0.,1.));
#235 = ORIENTED_EDGE('',*,*,#236,.F.);
#236 = EDGE_CURVE('',#197,#229,#237,.T.);
#237 = LINE('',#238,#239);
#238 = CARTESIAN_POINT('',(75.753,42.404,0.));
#239 = VECTOR('',#240,1.);
#240 = DIRECTION('',(-1.,0.,0.));
#241 = PLANE('',#242);
#242 = AXIS2_PLACEMENT_3D('',#243,#244,#245);
#243 = CARTESIAN_POINT('',(75.753,42.404,0.));
#244 = DIRECTION('',(0.,-1.,0.));
#245 = DIRECTION('',(-1.,0.,0.));
#246 = ADVANCED_FACE('',(#247),#274,.T.);
#247 = FACE_BOUND('',#248,.F.);
#248 = EDGE_LOOP('',(#249,#250,#259,#267));
#249 = ORIENTED_EDGE('',*,*,#228,.T.);
#250 = ORIENTED_EDGE('',*,*,#251,.T.);
#251 = EDGE_CURVE('',#221,#252,#254,.T.);
#252 = VERTEX_POINT('',#253);
#253 = CARTESIAN_POINT('',(56.103,42.154,0.1114806));
#254 = CIRCLE('',#255,0.249241542161);
#255 = AXIS2_PLACEMENT_3D('',#256,#257,#258);
#256 = CARTESIAN_POINT('',(56.352240384615,42.154759615385,0.1114806));
#257 = DIRECTION('',(0.,0.,1.));
#258 = DIRECTION('',(3.047707769863E-03,0.999995355728,-0.));
#259 = ORIENTED_EDGE('',*,*,#260,.F.);
#260 = EDGE_CURVE('',#261,#252,#263,.T.);
#261 = VERTEX_POINT('',#262);
#262 = CARTESIAN_POINT('',(56.103,42.154,0.));
#263 = LINE('',#264,#265);
#264 = CARTESIAN_POINT('',(56.103,42.154,0.));
#265 = VECTOR('',#266,1.);
#266 = DIRECTION('',(0.,0.,1.));
#267 = ORIENTED_EDGE('',*,*,#268,.F.);
#268 = EDGE_CURVE('',#229,#261,#269,.T.);
#269 = CIRCLE('',#270,0.249241542161);
#270 = AXIS2_PLACEMENT_3D('',#271,#272,#273);
#271 = CARTESIAN_POINT('',(56.352240384615,42.154759615385,0.));
#272 = DIRECTION('',(0.,0.,1.));
#273 = DIRECTION('',(3.047707769863E-03,0.999995355728,-0.));
#274 = CYLINDRICAL_SURFACE('',#275,0.249241542161);
#275 = AXIS2_PLACEMENT_3D('',#276,#277,#278);
#276 = CARTESIAN_POINT('',(56.352240384615,42.154759615385,0.));
#277 = DIRECTION('',(-0.,-0.,-1.));
#278 = DIRECTION('',(3.047707769863E-03,0.999995355728,-0.));
#279 = ADVANCED_FACE('',(#280),#296,.F.);
#280 = FACE_BOUND('',#281,.F.);
#281 = EDGE_LOOP('',(#282,#283,#289,#290));
#282 = ORIENTED_EDGE('',*,*,#260,.T.);
#283 = ORIENTED_EDGE('',*,*,#284,.T.);
#284 = EDGE_CURVE('',#252,#52,#285,.T.);
#285 = LINE('',#286,#287);
#286 = CARTESIAN_POINT('',(56.103,42.154,0.1114806));
#287 = VECTOR('',#288,1.);
#288 = DIRECTION('',(0.,-1.,0.));
#289 = ORIENTED_EDGE('',*,*,#49,.F.);
#290 = ORIENTED_EDGE('',*,*,#291,.F.);
#291 = EDGE_CURVE('',#261,#50,#292,.T.);
#292 = LINE('',#293,#294);
#293 = CARTESIAN_POINT('',(56.103,42.154,0.));
#294 = VECTOR('',#295,1.);
#295 = DIRECTION('',(0.,-1.,0.));
#296 = PLANE('',#297);
#297 = AXIS2_PLACEMENT_3D('',#298,#299,#300);
#298 = CARTESIAN_POINT('',(56.103,42.154,0.));
#299 = DIRECTION('',(1.,0.,-0.));
#300 = DIRECTION('',(0.,-1.,0.));
#301 = ADVANCED_FACE('',(#302),#312,.F.);
#302 = FACE_BOUND('',#303,.F.);
#303 = EDGE_LOOP('',(#304,#305,#306,#307,#308,#309,#310,#311));
#304 = ORIENTED_EDGE('',*,*,#76,.T.);
#305 = ORIENTED_EDGE('',*,*,#108,.T.);
#306 = ORIENTED_EDGE('',*,*,#140,.T.);
#307 = ORIENTED_EDGE('',*,*,#172,.T.);
#308 = ORIENTED_EDGE('',*,*,#204,.T.);
#309 = ORIENTED_EDGE('',*,*,#236,.T.);
#310 = ORIENTED_EDGE('',*,*,#268,.T.);
#311 = ORIENTED_EDGE('',*,*,#291,.T.);
#312 = PLANE('',#313);
#313 = AXIS2_PLACEMENT_3D('',#314,#315,#316);
#314 = CARTESIAN_POINT('',(66.053,37.954,0.));
#315 = DIRECTION('',(0.,0.,1.));
#316 = DIRECTION('',(1.,0.,-0.));
#317 = ADVANCED_FACE('',(#318),#328,.T.);
#318 = FACE_BOUND('',#319,.T.);
#319 = EDGE_LOOP('',(#320,#321,#322,#323,#324,#325,#326,#327));
#320 = ORIENTED_EDGE('',*,*,#59,.T.);
#321 = ORIENTED_EDGE('',*,*,#92,.T.);
#322 = ORIENTED_EDGE('',*,*,#123,.T.);
#323 = ORIENTED_EDGE('',*,*,#156,.T.);
#324 = ORIENTED_EDGE('',*,*,#187,.T.);
#325 = ORIENTED_EDGE('',*,*,#220,.T.);
#326 = ORIENTED_EDGE('',*,*,#251,.T.);
#327 = ORIENTED_EDGE('',*,*,#284,.T.);
#328 = PLANE('',#329);
#329 = AXIS2_PLACEMENT_3D('',#330,#331,#332);
#330 = CARTESIAN_POINT('',(66.053,37.954,0.1114806));
#331 = DIRECTION('',(0.,0.,1.));
#332 = DIRECTION('',(1.,0.,-0.));
#333 = ( GEOMETRIC_REPRESENTATION_CONTEXT(3) 
GLOBAL_UNCERTAINTY_ASSIGNED_CONTEXT((#337)) GLOBAL_UNIT_ASSIGNED_CONTEXT
((#334,#335,#336)) REPRESENTATION_CONTEXT('Context #1',
  '3D Context with UNIT and UNCERTAINTY') );
#334 = ( LENGTH_UNIT() NAMED_UNIT(*) SI_UNIT(.MILLI.,.METRE.) );
#335 = ( NAMED_UNIT(*) PLANE_ANGLE_UNIT() SI_UNIT($,.RADIAN.) );
#336 = ( NAMED_UNIT(*) SI_UNIT($,.STERADIAN.) SOLID_ANGLE_UNIT() );
#337 = UNCERTAINTY_MEASURE_WITH_UNIT(LENGTH_MEASURE(1.E-07),#334,
  'distance_accuracy_value','confusion accuracy');
#338 = SHAPE_DEFINITION_REPRESENTATION(#339,#42);
#339 = PRODUCT_DEFINITION_SHAPE('','',#340);
#340 = PRODUCT_DEFINITION('design','',#341,#344);
#341 = PRODUCT_DEFINITION_FORMATION('','',#342);
#342 = PRODUCT('Open CASCADE STEP translator 7.5 1.1.1',
  'Open CASCADE STEP translator 7.5 1.1.1','',(#343));
#343 = PRODUCT_CONTEXT('',#2,'mechanical');
#344 = PRODUCT_DEFINITION_CONTEXT('part definition',#2,'design');
#345 = CONTEXT_DEPENDENT_SHAPE_REPRESENTATION(#346,#348);
#346 = ( REPRESENTATION_RELATIONSHIP('','',#42,#32) 
REPRESENTATION_RELATIONSHIP_WITH_TRANSFORMATION(#347) 
SHAPE_REPRESENTATION_RELATIONSHIP() );
#347 = ITEM_DEFINED_TRANSFORMATION('','',#11,#33);
#348 = PRODUCT_DEFINITION_SHAPE('Placement','Placement of an item',#349
  );
#349 = NEXT_ASSEMBLY_USAGE_OCCURRENCE('1','','',#27,#340,$);
#350 = PRODUCT_RELATED_PRODUCT_CATEGORY('part',$,(#342));
#351 = CONTEXT_DEPENDENT_SHAPE_REPRESENTATION(#352,#354);
#352 = ( REPRESENTATION_RELATIONSHIP('','',#32,#10) 
REPRESENTATION_RELATIONSHIP_WITH_TRANSFORMATION(#353) 
SHAPE_REPRESENTATION_RELATIONSHIP() );
#353 = ITEM_DEFINED_TRANSFORMATION('','',#11,#15);
#354 = PRODUCT_DEFINITION_SHAPE('Placement','Placement of an item',#355
  );
#355 = NEXT_ASSEMBLY_USAGE_OCCURRENCE('2','','',#5,#27,$);
#356 = PRODUCT_RELATED_PRODUCT_CATEGORY('part',$,(#29));
#357 = MECHANICAL_DESIGN_GEOMETRIC_PRESENTATION_REPRESENTATION('',(#358)
  ,#333);
#358 = STYLED_ITEM('color',(#359),#43);
#359 = PRESENTATION_STYLE_ASSIGNMENT((#360,#366));
#360 = SURFACE_STYLE_USAGE(.BOTH.,#361);
#361 = SURFACE_SIDE_STYLE('',(#362));
#362 = SURFACE_STYLE_FILL_AREA(#363);
#363 = FILL_AREA_STYLE('',(#364));
#364 = FILL_AREA_STYLE_COLOUR('',#365);
#365 = COLOUR_RGB('',0.,0.501960785193,0.);
#366 = CURVE_STYLE('',#367,POSITIVE_LENGTH_MEASURE(0.1),#365);
#367 = DRAUGHTING_PRE_DEFINED_CURVE_FONT('continuous');
ENDSEC;
END-ISO-10303-21;
